Because, It's Midnite Tablature

From Homestar Runner Wiki

(Difference between revisions)
Jump to: navigation, search
(Used more accurate Tablatures)
Line 2: Line 2:
<pre style="padding: 15px; border: 1px solid #000; background-color: transparent; line-height: inherit; font-family: monospace; font-size; inherit;">
<pre style="padding: 15px; border: 1px solid #000; background-color: transparent; line-height: inherit; font-family: monospace; font-size; inherit;">
-
Gtr I (E A D G B E) - 'lead'
 
-
Gtr II (E A D G B E) - 'rhythm'
 
-
INTRO/OUTRO RIFF
 
 +
Gtr I (E A D G B E) - 'Lead'
 +
Gtr II (E A D G B E) - 'Backing'
 +
Gtr III (E A D G B E) - 'Final Chorus Strings'
 +
Gtr IV (E A D G B E) - 'Lead'
 +
 +
 +
Intro/Outro
 +
  Q=150
 +
            $
 +
  N.C.            D5                  F5
 +
4/4
   Gtr I
   Gtr I
-
|------------------------------------10-13-10----------------------13-------13-15-17p15p13-15-17-20-22---|
+
|---------|-------------------------------|
-
|-10----10-8----13----13-10----10-13----------------15----15-13-15---------------------------------------|
+
|---------|----------------------------13-|
-
|------------10-------------12---------------------------------------------------------------------------|
+
|---------|-12b14==(12)-----12r(12)-------|
-
|--------------------------------------------------------------------------------------------------------|
+
|---------|-------------------------15----|
-
|--------------------------------------------------------------------------------------------------------|
+
|---------|-------------------------------|
-
|--------------------------------------------------------------------------------------------------------|
+
|---------|-------------------------------|
|
|
| Gtr II
| Gtr II
-
|-------------------------------------------------------------------------|
+
|---------|-------------------------------|
-
|-------------------------------------------------------------------------|
+
|---------|-------------------------------|
-
|-7-7-7-7-7-7-7-10-10-10-10-10-10-10-7-5-5-5-5-5-5-5-7-7-7-7-7-7-7-7------|
+
|---------|----------7---7------(7)----10-|
-
|-7-7-7-7-7-7-7-10-10-10-10-10-10-10-7-5-5-5-5-5-5-5-7-7-7-7-7-7-7-5------| Play 2x
+
|---------|----------7---7------(7)----10-|
-
|-5-5-5-5-5-5-5--8--8--8--8--8--8--8-5-3-3-3-3-3-3-3-5-5-5-5-5-5-5-5------|
+
|---------|----------5---5------(5)-----8-|
-
|-------------------------------------------------------------------------|
+
|---------|-------------------------------|
-
VERSE
 
-
   Gtr I
+
                C5                    D5
-
|-------------------------------------------------------------------------|
+
|-------------|----------------10--13-10-|
-
|---------------------5-----5----5----------------------------------------|
+
|-(13)--------|-13----------13-----------|
-
|-5-7-7-5-7-7-7-5--5-----5-----5---5-5-7-7-5-7-7-5--7--7-7-7-7-7-7-7------|
+
|-------------|----14-12-14--------------|
-
|-------------------------------------------------------------------------|
+
|-------------|--------------------------|
-
|-------------------------------------------------------------------------|
+
|-------------|--------------------------|
-
|-------------------------------------------------------------------------|
+
|-------------|--------------------------|
 +
|
 +
|-------------|--------------------------|
 +
|-------------|--------------------------|
 +
|-(10)--------|--5-----5-------(5)-----7-|
 +
|-(10)--------|--5-----5-------(5)-----7-|
 +
|--(8)--------|--3-----3-------(3)-----5-|
 +
|-------------|--------------------------|
 +
 
 +
 
 +
                D5              F5
 +
|-(10)--------|-10-----10--------13-|
 +
|-------------|-----------13--10----|
 +
|-------------|---------------------|
 +
|-------------|---------------------|
 +
|-------------|---------------------|
 +
|-------------|---------------------|
 +
|
 +
|-------------|---------------------|
 +
|-------------|---------------------|
 +
|--(7)--------|--7--7-----(7)----10-|
 +
|--(7)--------|--7--7-----(7)----10-|
 +
|--(5)--------|--5--5-----(5)-----8-|
 +
|-------------|---------------------|
 +
 
 +
 
 +
                                  To Coda
 +
                C5                      D5
 +
|-(13)--------|-13-15-17p15p13-15-17--20-22--|
 +
|-------------|------------------------------|
 +
|-------------|------------------------------|
 +
|-------------|------------------------------|
 +
|-------------|------------------------------|
 +
|-------------|------------------------------|
 +
|
 +
|-------------|------------------------------|
 +
|-------------|------------------------------|
 +
|-(10)--------|--5-----5----------(5)-----7--|
 +
|-(10)--------|--5-----5----------(5)-----7--|
 +
|--(8)--------|--3-----3----------(3)-----5--|
 +
|-------------|------------------------------|
 +
 
 +
 
 +
              Verse
 +
                D5            F5
 +
|-(22)--------|------------------|---------------------------|
 +
|-------------|------------------|---------------------------|
 +
|-------------|------------------|---------------------------|
 +
|-------------|------------------|---------------------------|
 +
|-------------|------------------|---------------------------|
 +
|-------------|------------------|---------------------------|
 +
|
 +
|-------------|------------------|---------------------------|
 +
|-------------|------------------|---------------------------|
 +
|--(7)--------|------------------|---------------------------|
 +
|--(7)--------|-7-7-7-7-7-7-7-10-|-(10)-10-10-10-10-10-10-10-|
 +
|--(5)--------|-5-5-5-5-5-5-5--8-|--(8)--8--8--8--8--8--8--8-|
 +
|-------------|------------------|---------------------------|
 +
 
 +
 
 +
   C5            D5
 +
|-----------------|-------------------|
 +
|-----------------|-------------------|
 +
|-----------------|-------------------|
 +
|-----------------|-------------------|
 +
|-----------------|-------------------|
 +
|-----------------|-------------------|
 +
|
 +
|-----------------|-------------------|
 +
|-----------------|-------------------|
 +
|-----------------|-------------------|
 +
|-5-5-5-5-5-5-5-7-|-(7)-7-7-7-7-7-7-7-|
 +
|-3-3-3-3-3-3-3-5-|-(5)-5-5-5-5-5-5-5-|
 +
|-----------------|-------------------|
 +
 
 +
 
 +
  D5            F5                              C5
 +
  Gtr II
 +
|------------------|---------------------------|-----------------|-----|
 +
|------------------|---------------------------|-----------------|-----|
 +
|------------------|---------------------------|-----------------|-----|
 +
|-7-7-7-7-7-7-7-10-|-(10)-10-10-10-10-10-10-10-|-5-5-5-5-5-5-5-7-|-----|
 +
|-5-5-5-5-5-5-5--8-|--(8)--8--8--8--8--8--8--8-|-3-3-3-3-3-3-3-5-|-----|
 +
|------------------|---------------------------|-----------------|-----|
 +
 
 +
 
 +
  Chorus
 +
    D5          F5
 +
    Gtr I
 +
||-----------------|-----------------|
 +
||o----------------|-----------------|
 +
||--7--------------|--(7)----9-10-9--|
 +
||-----------------|-----------------|
 +
||o----------------|-----------------|
 +
||-----------------|-----------------|
 +
|
 +
|  Gtr II
 +
||-----------------|-----------------|
 +
||o----------------|-----------------|
 +
||--7--7---(7)--10-|-(10)------------|
 +
||--7--7---(7)--10-|-(10)------------|
 +
||o-5--5---(5)---8-|--(8)------------|
 +
||-----------------|-----------------|
 +
 
 +
 
 +
  C5            D5
 +
|-------------------|----------------------||
 +
|-------------------|---------------------o||
 +
|-7----------(7)-10-|-(10)-9-7----7-9-7----||
 +
|-------------------|----------10----------||
 +
|-------------------|---------------------o||
 +
|-------------------|----------------------||
 +
|
 +
|-------------------|----------------------||
 +
|-------------------|---------------------o||
 +
|-5--5---(5)------7-|--(7)-----------------||
 +
|-5--5---(5)------7-|--(7)-----------------||
 +
|-3--3---(3)------5-|--(5)----------------o||
 +
|-------------------|----------------------||
 +
 
 +
 
 +
  Verse
 +
    D5            F5
 +
    Gtr II
 +
||-------------------|---------------------------|
 +
||o------------------|---------------------------|
 +
||-------------------|---------------------------|
 +
||--7-7-7-7-7-7-7-10-|-(10)-10-10-10-10-10-10-10-|
 +
||o-5-5-5-5-5-5-5--8-|--(8)--8--8--8--8--8--8--8-|
 +
||-------------------|---------------------------|
 +
 
 +
 
 +
                  1.                    2.
 +
  C5            D5                        N.C.
 +
|-----------------|--------------------||-----|
 +
|-----------------|-------------------o||-----|
 +
|-----------------|--------------------||-----|
 +
|-5-5-5-5-5-5-5-7-|-(7)-7-7-7-7-7-7-7--||-----|
 +
|-3-3-3-3-3-3-3-5-|-(5)-5-5-5-5-5-5-5-o||-----|
 +
|-----------------|--------------------||-----|
 +
 
 +
 
 +
  Chorus
 +
    D5          F5
 +
    Gtr I
 +
||-----------------|-----------------|
 +
||o----------------|-----------------|
 +
||--7--------------|--(7)----9-10-9--|
 +
||-----------------|-----------------|
 +
||o----------------|-----------------|
 +
||-----------------|-----------------|
 +
|
 +
|  Gtr II
 +
||-----------------|-----------------|
 +
||o----------------|-----------------|
 +
||--7--7---(7)--10-|-(10)------------|
 +
||--7--7---(7)--10-|-(10)------------|
 +
||o-5--5---(5)---8-|--(8)------------|
 +
||-----------------|-----------------|
 +
 
 +
 
 +
  C5            D5
 +
|-------------------|----------------------||
 +
|-------------------|---------------------o||
 +
|-7----------(7)-10-|-(10)-9-7----7-9-7----||
 +
|-------------------|----------10----------||
 +
|-------------------|---------------------o||
 +
|-------------------|----------------------||
 +
|
 +
|-------------------|----------------------||
 +
|-------------------|---------------------o||
 +
|-5--5---(5)------7-|--(7)-----------------||
 +
|-5--5---(5)------7-|--(7)-----------------||
 +
|-3--3---(3)------5-|--(5)----------------o||
 +
|-------------------|----------------------||
 +
 
 +
 
 +
Guitar Solo
 +
  D5          F5          E5          C5
 +
  TP
 +
|-10-------------|--10h=12p10h12p10h12p10h12p10h12p10h12p10h12p10h12-|
 +
|----------------|---------------------------------------------------|
 +
|----------------|---------------------------------------------------|
 +
|----------------|---------------------------------------------------|
 +
|----------------|---------------------------------------------------|
 +
|----------------|---------------------------------------------------|
 +
|
 +
|----------------|---------------------------------------------------|
 +
|----------------|---------------------------------------------------|
 +
|--7------(7)-10-|-(10)-----9-----------5----------------------------|
 +
|--7------(7)-10-|-(10)-----9-----------5----------------------------|
 +
|--5------(5)--8-|--(8)-----7-----------3----------------------------|
 +
|----------------|---------------------------------------------------|
 +
 
 +
 
 +
  D5                                        F5            E5      C5
 +
|-10h13p10h13p10h13p10h13p10h13p10h13p10h=13p10h13-|--13b15r==13b15r==13b14rp=10-----|
 +
|--------------------------------------------------|---------------------------------|
 +
|--------------------------------------------------|---------------------------------|
 +
|--------------------------------------------------|---------------------------------|
 +
|--------------------------------------------------|---------------------------------|
 +
|--------------------------------------------------|---------------------------------|
 +
|
 +
|--------------------------------------------------|---------------------------------|
 +
|--------------------------------------------------|---------------------------------|
 +
|--7----------------------------------(7)----10----|-(10)---9-------5----------------|
 +
|--7----------------------------------(7)----10----|-(10)---9-------5----------------|
 +
|--5----------------------------------(5)-----8----|--(8)---7-------3----------------|
 +
|--------------------------------------------------|---------------------------------|
 +
 
 +
 
 +
  D5                                        F5            E5      C5
 +
|-15h17p15h17p15h17p15h17p15h17p15h17p15h=17p15h17-|--15b17r==15b17r==15b16rp=13--|
 +
|--------------------------------------------------|------------------------------|
 +
|--------------------------------------------------|------------------------------|
 +
|--------------------------------------------------|------------------------------|
 +
|--------------------------------------------------|------------------------------|
 +
|--------------------------------------------------|------------------------------|
 +
|
 +
| Gtr IV
 +
|--------------------------------------------------|------------------------------|
 +
|--------------------------------------------------|------------------------------|
 +
|--------------------------------------------------|------------------------------|
 +
|--------------------------------------------------|------------------------------|
 +
|--------------------------------------------------|------------------------------|
 +
|--------------------------------------------------|------------------------------|
|
|
| Gtr II
| Gtr II
-
|-------------------------------------------------------------------------|
+
|--------------------------------------------------|------------------------------|
-
|-------------------------------------------------------------------------|
+
|--------------------------------------------------|------------------------------|
-
|-7-7-7-7-7-7-7-10-10-10-10-10-10-10-7-5-5-5-5-5-5-5-7-7-7-7-7-7-7-7------|
+
|--7----------------------------------(7)----10----|-(10)---9-------5-------------|
-
|-7-7-7-7-7-7-7-10-10-10-10-10-10-10-7-5-5-5-5-5-5-5-7-7-7-7-7-7-7-5------|
+
|--7----------------------------------(7)----10----|-(10)---9-------5-------------|
-
|-5-5-5-5-5-5-5--8--8--8--8--8--8--8-5-3-3-3-3-3-3-3-5-5-5-5-5-5-5-5------|
+
|--5----------------------------------(5)-----8----|--(8)---7-------3-------------|
-
|-------------------------------------------------------------------------|
+
|--------------------------------------------------|------------------------------|
-
                                                               
+
-
  Gtr I                                                     
+
-
|-------------------------------------------------------------------------|
+
-
|---------------------------5-----5-----5---------------------------------|
+
-
|-5-7-7-5-7-7-7--5-------5-----5-----5----5-5-7-7-5-7-7-5-7---------------|
+
-
|-------------------------------------------------------------------------|
+
-
|-------------------------------------------------------------------------|
+
-
|-------------------------------------------------------------------------|
+
-
|  Gtr II
+
-
|-------------------------------------------------------------------------|
+
-
|-------------------------------------------------------------------------|
+
-
|-7-7-7-7-7-7-7-10-(10)-10-10-10-10-10-10-7-5-5-5-5-5-5-5-7---------------|
+
-
|-7-7-7-7-7-7-7-10-(10)-10-10-10-10-10-10-7-5-5-5-5-5-5-5-7---------------|
+
-
|-5-5-5-5-5-5-5--8--(8)--8--8--8--8--8--8-5-3-3-3-3-3-3-3-5---------------|
+
-
|-------------------------------------------------------------------------|
+
-
CHORUS
 
-
  Gtr I                                                                     
+
  D5                                        F5              E5          C5
-
|------------------------------------------------------------------------------|
+
|-17h20p17h20p17h20p17h20p17h20p17h20p17h=20p17h20p|==17h=20p17h20p17h20p17h20-22---------|-(22)--------------|
-
|---------5-6--5------------------6------5-------5-----------------------------|
+
|--------------------------------------------------|--------------------------------------|-------------------|
-
|-7---------------5---7--------------------7-5-7---7---------------------------|
+
|--------------------------------------------------|--------------------------------------|-------------------|
-
|------------------------------------------------------------------------------| 2x
+
|--------------------------------------------------|--------------------------------------|-------------------|
-
|------------------------------------------------------------------------------|
+
|--------------------------------------------------|--------------------------------------|-------------------|
-
|------------------------------------------------------------------------------|
+
|--------------------------------------------------|--------------------------------------|-------------------|
|
|
-
|  Gtr II
+
|--------------------------------------------------|--------------------------------------|-------------------|
-
|------------------------------------------------------------------------------|
+
|--------------------------------------------------|--------------------------------------|-------------------|
-
|------------------------------------------------------------------------------|
+
|--------------------------------------------------|----------------------------9-10-9----|---7-----(7)-------|
-
|-7-7-7-7-7--7-7-10-(10)-10-10-10-10-10-10-7-5-5-5-5-5-5-5-7-(7)-7-7-7-7-7-7-7-|
+
|--------------------------------------------------|-----------------------------------10-|---------------10--|
-
|-7-7-7-7-7--7-7-10-(10)-10-10-10-10-10-10-7-5-5-5-5-5-5-5-7-(7)-7-7-7-7-7-7-7-| 2x
+
|--------------------------------------------------|--------------------------------------|-------------------|
-
|-5-5-5-5-5--5-5--8--(8)--8--8--8--8--8--8-5-3-3-3-3-3-3-3-5-(5)-5-5-5-5-5-5-5-|
+
|--------------------------------------------------|--------------------------------------|-------------------|
-
|------------------------------------------------------------------------------|
+
|
 +
|--------------------------------------------------|--------------------------------------|-------------------|
 +
|--------------------------------------------------|--------------------------------------|-------------------|
 +
|--7----------------------------------(7)----10----|-(10)-----9-----------5---------------|-------------------|
 +
|--7----------------------------------(7)----10----|-(10)-----9-----------5---------------|-------------------|
 +
|--5----------------------------------(5)-----8----|--(8)-----7-----------3---------------|-------------------|
 +
|--------------------------------------------------|--------------------------------------|-------------------|
-
Play VERSE
 
-
Play CHORUS
+
Bridge
 +
  N.C.
 +
  Gtr I
 +
|---------------|---------------|---------------|---------------|-----|
 +
|---------------|---------------|---------------|---------------|-----|
 +
|-----9-10-9----|-7----(7)---10-|-----9-10-9----|-7----(7)------|-----|
 +
|------------10-|---------------|------------10-|------------10-|-----|
 +
|---------------|---------------|---------------|---------------|-----|
 +
|---------------|---------------|---------------|---------------|-----|
 +
 
 +
 
 +
|---------------------------|------------------|
 +
|---------------------------|------------------|
 +
|--12-12-12-(12)-12-(12)-12-|-(12)b14r==10-----|
 +
|---------------------------|------------------|
 +
|---------------------------|------------------|
 +
|---------------------------|------------------|
-
KEYBOARD SOLO   
 
 +
  Verse
 +
    D5            F5
 +
  4/4
     Gtr II
     Gtr II
-
                               
+
||-------------------|---------------------------|
-
|--------------------------------|
+
||o------------------|---------------------------|
-
|--------------------------------|
+
||-------------------|---------------------------|
-
|-7-7-7-7-7-7-7-12--10--5--5-5-5-| Play 4x
+
||--7-7-7-7-7-7-7-10-|-(10)-10-10-10-10-10-10-10-|
-
|-7-7-7-7-7-7-7-12--10--5--5-5-5-|
+
||o-5-5-5-5-5-5-5--8-|--(8)--8--8--8--8--8--8--8-|
-
|-5-5-5-5-5-5-5-10---8--3--3-3-3-|
+
||-------------------|---------------------------|
-
|--------------------------------|
+
-
BRIDGE
 
 +
                  1.                    2.
 +
  C5            D5                        N.C.
 +
|-----------------|--------------------||-----|
 +
|-----------------|-------------------o||-----|
 +
|-----------------|--------------------||-----|
 +
|-5-5-5-5-5-5-5-7-|-(7)-7-7-7-7-7-7-7--||-----|
 +
|-3-3-3-3-3-3-3-5-|-(5)-5-5-5-5-5-5-5-o||-----|
 +
|-----------------|--------------------||-----|
 +
 +
 +
  Last Chorus
 +
    D5          F5                    C5              D5
     Gtr I
     Gtr I
-
|----------------------------------------------------------------------------|
+
||-----------------|-----------------|--------------------|
-
|----------------------------------------------------------------------------|
+
||o----------------|-----------------|--------------------|
-
|------------------------------------------------------------2-2-2-----------|
+
||--7--------------|--(7)----9-10-9--|--7----------(7)-10-|
-
|-2-3-2---0-(0)-3--2-3-2---0-(0)----2-3-2---0-(0)-3----5-5-5-0-0-0--3p2p0----|
+
||-----------------|-----------------|--------------------|
-
|-------3----------------3-------3--------3------------3-3-3-----------------|
+
||o----------------|-----------------|--------------------|
-
|----------------------------------------------------------------------------|
+
||-----------------|-----------------|--------------------|
 +
|
 +
|  Gtr II
 +
||-----------------|-----------------|--------------------|
 +
||o----------------|-----------------|--------------------|
 +
||--7--7---(7)--10-|-(10)------------|--5--5---(5)------7-|
 +
||--7--7---(7)--10-|-(10)------------|--5--5---(5)------7-|
 +
||o-5--5---(5)---8-|--(8)------------|--3--3---(3)------5-|
 +
||-----------------|-----------------|--------------------|
-
Play VERSE
+
        D.S. al Coda    &
 +
                        N.C.
 +
|---------------------||--10-10-10-10-----*|
 +
|--------------------o||------------------*|
 +
|-(10)-9-7----7-9-7---||------------------*|
 +
|----------10---------||------------------*|
 +
|--------------------o||------------------*|
 +
|---------------------||------------------*|
 +
|
 +
|---------------------||------------------*|
 +
|--------------------o||------------------*|
 +
|--(7)----------------||------------------*|
 +
|--(7)----------------||------------------*|
 +
|--(5)---------------o||------------------*|
 +
|---------------------||------------------*|
 +
|
 +
|---------------------||------------------*|
 +
|--------------------o||------------------*|
 +
|---------------------||------------------*|
 +
|-(10)----------------||------------------*|
 +
|--------------------o||------------------*|
 +
|---------------------||------------------*|
-
Play CHORUS
 
-
Play INTRO/OUTRO RIFF
 
-
IT'S OVER!
+
 
 +
--------------------------------------------------------------------------------
 +
 
Tablature Legend
Tablature Legend
Line 111: Line 389:
  h  - hammer-on
  h  - hammer-on
  p  - pull-off
  p  - pull-off
 +
b  - bend
 +
pb  - pre-bend
 +
r  - bend release (if no number after the r, then release immediately)
  /\  - slide into or out of (from/to "nowhere")
  /\  - slide into or out of (from/to "nowhere")
 +
s  - legato slide
 +
S  - shift slide
 +
<n> - natural harmonic
 +
[n]  - artificial harmonic
 +
n(n) - tapped harmonic
 +
~  - vibrato
 +
tr  - trill
 +
T  - tap
 +
TP  - trem. picking
 +
PM  - palm muting
 +
\n/  - tremolo bar dip; n = amount to dip
 +
\n  - tremolo bar down
 +
n/  - tremolo bar up
 +
/n\  - tremolo bar inverted dip
 +
=  - hold bend; also acts as connecting device for hammers/pulls
 +
<> - volume swell (louder/softer)
 +
x  - on rhythm slash represents muted slash
 +
o  - on rhythm slash represents single note slash
-
SECTION NAMES IN ALL CAPS
+
Misc Legend
 +
-----------
 +
|  - bar
 +
||  - double bar
 +
||o - repeat start
 +
o|| - repeat end
 +
*|  - double bar (ending)
 +
:  - bar (freetime)
 +
$  - Segno
 +
&  - Coda
 +
Tempo markers - <E/E./Q/Q./H/H.> = BPM(8/16=s8/s16), where s8 = swing 8ths, s16 = swing 16ths
-
***************************************************************************************
 
-
* Generated using Power Tab Editor by Brad Larsen - http://powertab.guitarnetwork.org *
 
-
***************************************************************************************
 
</pre>
</pre>
-
 
-
You may need to play around with the rhythm a bit, but the notes themselves are accurate.
 
[[Category:Tablature]]
[[Category:Tablature]]

Revision as of 22:12, 30 June 2008

This is the guitar tablature for Because, It's Midnite.



Gtr I (E A D G B E) - 'Lead'
Gtr II (E A D G B E) - 'Backing'
Gtr III (E A D G B E) - 'Final Chorus Strings'
Gtr IV (E A D G B E) - 'Lead'


 Intro/Outro
  Q=150
            $
  N.C.             D5                  F5
 4/4
  Gtr I
|---------|-------------------------------|
|---------|----------------------------13-|
|---------|-12b14==(12)-----12r(12)-------|
|---------|-------------------------15----|
|---------|-------------------------------|
|---------|-------------------------------|
|
| Gtr II
|---------|-------------------------------|
|---------|-------------------------------|
|---------|----------7---7------(7)----10-|
|---------|----------7---7------(7)----10-|
|---------|----------5---5------(5)-----8-|
|---------|-------------------------------|


                C5                    D5
|-------------|----------------10--13-10-|
|-(13)--------|-13----------13-----------|
|-------------|----14-12-14--------------|
|-------------|--------------------------|
|-------------|--------------------------|
|-------------|--------------------------|
|
|-------------|--------------------------|
|-------------|--------------------------|
|-(10)--------|--5-----5-------(5)-----7-|
|-(10)--------|--5-----5-------(5)-----7-|
|--(8)--------|--3-----3-------(3)-----5-|
|-------------|--------------------------|


                D5               F5
|-(10)--------|-10-----10--------13-|
|-------------|-----------13--10----|
|-------------|---------------------|
|-------------|---------------------|
|-------------|---------------------|
|-------------|---------------------|
|
|-------------|---------------------|
|-------------|---------------------|
|--(7)--------|--7--7-----(7)----10-|
|--(7)--------|--7--7-----(7)----10-|
|--(5)--------|--5--5-----(5)-----8-|
|-------------|---------------------|


                                  To Coda
                C5                       D5
|-(13)--------|-13-15-17p15p13-15-17--20-22--|
|-------------|------------------------------|
|-------------|------------------------------|
|-------------|------------------------------|
|-------------|------------------------------|
|-------------|------------------------------|
|
|-------------|------------------------------|
|-------------|------------------------------|
|-(10)--------|--5-----5----------(5)-----7--|
|-(10)--------|--5-----5----------(5)-----7--|
|--(8)--------|--3-----3----------(3)-----5--|
|-------------|------------------------------|


               Verse
                D5            F5
|-(22)--------|------------------|---------------------------|
|-------------|------------------|---------------------------|
|-------------|------------------|---------------------------|
|-------------|------------------|---------------------------|
|-------------|------------------|---------------------------|
|-------------|------------------|---------------------------|
|
|-------------|------------------|---------------------------|
|-------------|------------------|---------------------------|
|--(7)--------|------------------|---------------------------|
|--(7)--------|-7-7-7-7-7-7-7-10-|-(10)-10-10-10-10-10-10-10-|
|--(5)--------|-5-5-5-5-5-5-5--8-|--(8)--8--8--8--8--8--8--8-|
|-------------|------------------|---------------------------|


  C5            D5
|-----------------|-------------------|
|-----------------|-------------------|
|-----------------|-------------------|
|-----------------|-------------------|
|-----------------|-------------------|
|-----------------|-------------------|
|
|-----------------|-------------------|
|-----------------|-------------------|
|-----------------|-------------------|
|-5-5-5-5-5-5-5-7-|-(7)-7-7-7-7-7-7-7-|
|-3-3-3-3-3-3-3-5-|-(5)-5-5-5-5-5-5-5-|
|-----------------|-------------------|


  D5            F5                               C5
  Gtr II
|------------------|---------------------------|-----------------|-----|
|------------------|---------------------------|-----------------|-----|
|------------------|---------------------------|-----------------|-----|
|-7-7-7-7-7-7-7-10-|-(10)-10-10-10-10-10-10-10-|-5-5-5-5-5-5-5-7-|-----|
|-5-5-5-5-5-5-5--8-|--(8)--8--8--8--8--8--8--8-|-3-3-3-3-3-3-3-5-|-----|
|------------------|---------------------------|-----------------|-----|


   Chorus
    D5          F5
    Gtr I
||-----------------|-----------------|
||o----------------|-----------------|
||--7--------------|--(7)----9-10-9--|
||-----------------|-----------------|
||o----------------|-----------------|
||-----------------|-----------------|
|
|   Gtr II
||-----------------|-----------------|
||o----------------|-----------------|
||--7--7---(7)--10-|-(10)------------|
||--7--7---(7)--10-|-(10)------------|
||o-5--5---(5)---8-|--(8)------------|
||-----------------|-----------------|


  C5             D5
|-------------------|----------------------||
|-------------------|---------------------o||
|-7----------(7)-10-|-(10)-9-7----7-9-7----||
|-------------------|----------10----------||
|-------------------|---------------------o||
|-------------------|----------------------||
|
|-------------------|----------------------||
|-------------------|---------------------o||
|-5--5---(5)------7-|--(7)-----------------||
|-5--5---(5)------7-|--(7)-----------------||
|-3--3---(3)------5-|--(5)----------------o||
|-------------------|----------------------||


   Verse
    D5            F5
    Gtr II
||-------------------|---------------------------|
||o------------------|---------------------------|
||-------------------|---------------------------|
||--7-7-7-7-7-7-7-10-|-(10)-10-10-10-10-10-10-10-|
||o-5-5-5-5-5-5-5--8-|--(8)--8--8--8--8--8--8--8-|
||-------------------|---------------------------|


                   1.                    2.
  C5            D5                        N.C.
|-----------------|--------------------||-----|
|-----------------|-------------------o||-----|
|-----------------|--------------------||-----|
|-5-5-5-5-5-5-5-7-|-(7)-7-7-7-7-7-7-7--||-----|
|-3-3-3-3-3-3-3-5-|-(5)-5-5-5-5-5-5-5-o||-----|
|-----------------|--------------------||-----|


   Chorus
    D5          F5
    Gtr I
||-----------------|-----------------|
||o----------------|-----------------|
||--7--------------|--(7)----9-10-9--|
||-----------------|-----------------|
||o----------------|-----------------|
||-----------------|-----------------|
|
|   Gtr II
||-----------------|-----------------|
||o----------------|-----------------|
||--7--7---(7)--10-|-(10)------------|
||--7--7---(7)--10-|-(10)------------|
||o-5--5---(5)---8-|--(8)------------|
||-----------------|-----------------|


  C5             D5
|-------------------|----------------------||
|-------------------|---------------------o||
|-7----------(7)-10-|-(10)-9-7----7-9-7----||
|-------------------|----------10----------||
|-------------------|---------------------o||
|-------------------|----------------------||
|
|-------------------|----------------------||
|-------------------|---------------------o||
|-5--5---(5)------7-|--(7)-----------------||
|-5--5---(5)------7-|--(7)-----------------||
|-3--3---(3)------5-|--(5)----------------o||
|-------------------|----------------------||


 Guitar Solo
  D5          F5           E5          C5
   TP
|-10-------------|--10h=12p10h12p10h12p10h12p10h12p10h12p10h12p10h12-|
|----------------|---------------------------------------------------|
|----------------|---------------------------------------------------|
|----------------|---------------------------------------------------|
|----------------|---------------------------------------------------|
|----------------|---------------------------------------------------|
|
|----------------|---------------------------------------------------|
|----------------|---------------------------------------------------|
|--7------(7)-10-|-(10)-----9-----------5----------------------------|
|--7------(7)-10-|-(10)-----9-----------5----------------------------|
|--5------(5)--8-|--(8)-----7-----------3----------------------------|
|----------------|---------------------------------------------------|


  D5                                         F5             E5      C5
|-10h13p10h13p10h13p10h13p10h13p10h13p10h=13p10h13-|--13b15r==13b15r==13b14rp=10-----|
|--------------------------------------------------|---------------------------------|
|--------------------------------------------------|---------------------------------|
|--------------------------------------------------|---------------------------------|
|--------------------------------------------------|---------------------------------|
|--------------------------------------------------|---------------------------------|
|
|--------------------------------------------------|---------------------------------|
|--------------------------------------------------|---------------------------------|
|--7----------------------------------(7)----10----|-(10)---9-------5----------------|
|--7----------------------------------(7)----10----|-(10)---9-------5----------------|
|--5----------------------------------(5)-----8----|--(8)---7-------3----------------|
|--------------------------------------------------|---------------------------------|


  D5                                         F5             E5      C5
|-15h17p15h17p15h17p15h17p15h17p15h17p15h=17p15h17-|--15b17r==15b17r==15b16rp=13--|
|--------------------------------------------------|------------------------------|
|--------------------------------------------------|------------------------------|
|--------------------------------------------------|------------------------------|
|--------------------------------------------------|------------------------------|
|--------------------------------------------------|------------------------------|
|
| Gtr IV
|--------------------------------------------------|------------------------------|
|--------------------------------------------------|------------------------------|
|--------------------------------------------------|------------------------------|
|--------------------------------------------------|------------------------------|
|--------------------------------------------------|------------------------------|
|--------------------------------------------------|------------------------------|
|
| Gtr II
|--------------------------------------------------|------------------------------|
|--------------------------------------------------|------------------------------|
|--7----------------------------------(7)----10----|-(10)---9-------5-------------|
|--7----------------------------------(7)----10----|-(10)---9-------5-------------|
|--5----------------------------------(5)-----8----|--(8)---7-------3-------------|
|--------------------------------------------------|------------------------------|


  D5                                         F5              E5          C5
|-17h20p17h20p17h20p17h20p17h20p17h20p17h=20p17h20p|==17h=20p17h20p17h20p17h20-22---------|-(22)--------------|
|--------------------------------------------------|--------------------------------------|-------------------|
|--------------------------------------------------|--------------------------------------|-------------------|
|--------------------------------------------------|--------------------------------------|-------------------|
|--------------------------------------------------|--------------------------------------|-------------------|
|--------------------------------------------------|--------------------------------------|-------------------|
|
|--------------------------------------------------|--------------------------------------|-------------------|
|--------------------------------------------------|--------------------------------------|-------------------|
|--------------------------------------------------|----------------------------9-10-9----|---7-----(7)-------|
|--------------------------------------------------|-----------------------------------10-|---------------10--|
|--------------------------------------------------|--------------------------------------|-------------------|
|--------------------------------------------------|--------------------------------------|-------------------|
|
|--------------------------------------------------|--------------------------------------|-------------------|
|--------------------------------------------------|--------------------------------------|-------------------|
|--7----------------------------------(7)----10----|-(10)-----9-----------5---------------|-------------------|
|--7----------------------------------(7)----10----|-(10)-----9-----------5---------------|-------------------|
|--5----------------------------------(5)-----8----|--(8)-----7-----------3---------------|-------------------|
|--------------------------------------------------|--------------------------------------|-------------------|


 Bridge
  N.C.
  Gtr I
|---------------|---------------|---------------|---------------|-----|
|---------------|---------------|---------------|---------------|-----|
|-----9-10-9----|-7----(7)---10-|-----9-10-9----|-7----(7)------|-----|
|------------10-|---------------|------------10-|------------10-|-----|
|---------------|---------------|---------------|---------------|-----|
|---------------|---------------|---------------|---------------|-----|


|---------------------------|------------------|
|---------------------------|------------------|
|--12-12-12-(12)-12-(12)-12-|-(12)b14r==10-----|
|---------------------------|------------------|
|---------------------------|------------------|
|---------------------------|------------------|


   Verse
    D5            F5
   4/4
    Gtr II
||-------------------|---------------------------|
||o------------------|---------------------------|
||-------------------|---------------------------|
||--7-7-7-7-7-7-7-10-|-(10)-10-10-10-10-10-10-10-|
||o-5-5-5-5-5-5-5--8-|--(8)--8--8--8--8--8--8--8-|
||-------------------|---------------------------|


                   1.                    2.
  C5            D5                        N.C.
|-----------------|--------------------||-----|
|-----------------|-------------------o||-----|
|-----------------|--------------------||-----|
|-5-5-5-5-5-5-5-7-|-(7)-7-7-7-7-7-7-7--||-----|
|-3-3-3-3-3-3-3-5-|-(5)-5-5-5-5-5-5-5-o||-----|
|-----------------|--------------------||-----|


   Last Chorus
    D5          F5                     C5              D5
    Gtr I
||-----------------|-----------------|--------------------|
||o----------------|-----------------|--------------------|
||--7--------------|--(7)----9-10-9--|--7----------(7)-10-|
||-----------------|-----------------|--------------------|
||o----------------|-----------------|--------------------|
||-----------------|-----------------|--------------------|
|
|   Gtr II
||-----------------|-----------------|--------------------|
||o----------------|-----------------|--------------------|
||--7--7---(7)--10-|-(10)------------|--5--5---(5)------7-|
||--7--7---(7)--10-|-(10)------------|--5--5---(5)------7-|
||o-5--5---(5)---8-|--(8)------------|--3--3---(3)------5-|
||-----------------|-----------------|--------------------|

         D.S. al Coda    &
                         N.C.
|---------------------||--10-10-10-10-----*|
|--------------------o||------------------*|
|-(10)-9-7----7-9-7---||------------------*|
|----------10---------||------------------*|
|--------------------o||------------------*|
|---------------------||------------------*|
|
|---------------------||------------------*|
|--------------------o||------------------*|
|--(7)----------------||------------------*|
|--(7)----------------||------------------*|
|--(5)---------------o||------------------*|
|---------------------||------------------*|
|
|---------------------||------------------*|
|--------------------o||------------------*|
|---------------------||------------------*|
|-(10)----------------||------------------*|
|--------------------o||------------------*|
|---------------------||------------------*|




--------------------------------------------------------------------------------


Tablature Legend
----------------
 h   - hammer-on
 p   - pull-off
 b   - bend
 pb  - pre-bend
 r   - bend release (if no number after the r, then release immediately)
 /\  - slide into or out of (from/to "nowhere")
 s   - legato slide
 S   - shift slide
<n> - natural harmonic
[n]  - artificial harmonic
n(n) - tapped harmonic
 ~   - vibrato
 tr  - trill
 T   - tap
 TP  - trem. picking
 PM  - palm muting
\n/  - tremolo bar dip; n = amount to dip
 \n  - tremolo bar down
 n/  - tremolo bar up
/n\  - tremolo bar inverted dip
 =   - hold bend; also acts as connecting device for hammers/pulls
 <> - volume swell (louder/softer)
 x   - on rhythm slash represents muted slash
 o   - on rhythm slash represents single note slash

Misc Legend
-----------
 |  - bar
||  - double bar
||o - repeat start
o|| - repeat end
*|  - double bar (ending)
 :  - bar (freetime)
 $  - Segno
 &  - Coda
Tempo markers - <E/E./Q/Q./H/H.> = BPM(8/16=s8/s16), where s8 = swing 8ths, s16 = swing 16ths

Personal tools